sabato 11 febbraio 2012

Chocobo (Final Fantasy IX) Ukulele Tab

Oggi voglio mettere una canzoncina che spero vi piaccia. Va suonata abbastanza veloce.

Part A

A |3--------3-----3--0-----0--0-----0--|3-----3--3-----2--------2--2-----2--|
E |3--------3-----3--2-----2--2-----2--|1-----1--1-----1--------1--1-----1--| x4
C |4--------4-----4--3-----3--3-----3--|2-----2--2-----2--------2--2-----2--|
G |---------------------------------------|0-----0--0-----0--------0--0-----0--|
                                                                          
    Part B  (play twice)
                                                                          
A |3--------3-----3--0-----0--0-----0--|2-----2--2-----0--------0--0-----0--|
E |3--------3-----3--1-----1--1-----1--|3-----3--3-----1--------1--1-----1--| x2
C |4--------4-----4--0-----0--0-----0--|2-----2--2-----0--------0--0-----0--|
G |---------------------------------------|----------------------------------------|
                                                                          
A |3--------3-----3--1-----1--1-----1--|3-----3--3-----1--------1--1-----1--|
E |3--------3-----3--1-----1--1-----1--|3-----3--3-----3--------3--3-----3--|
C |4--------4-----4--2-----2--2-----2--|4-----4--4-----3--------3--3-----3--|
G |---------------------------------------|----------------------------------------|
                                                                          
A |3--------3-----3--1-----1--1-----1--|3-----3--3-----3--------3--3-----3--|
E |3--------3-----3--1-----1--1-----1--|4-----4--4-----4--------4--4-----4--|
C |4--------4-----4--2-----2--2-----2--|3-----3--3-----3--------3--3-----3--|
G |---------------------------------------|----------------------------------------|
                                                                          
    Part C
                                                                          
A |0--------0-----0--------0--0-----0--|2-----2--2-----2--------2--2-----2--|
E |1--------1-----1--------1--1-----1--|3-----3--3-----3--------3--3-----3--|
C |0--------0-----0--------0--0-----0--|2-----2--2-----2--------2--2-----2--|
G |---------------------------------------|---------------------------------------|
                                                                            
A |3--------3-----3--3-----3--3-----3--|3-----3--3-----3--------3--3-----3--|
E |3--------3-----3--3-----3--3-----3--|3-----3--3-----3--------3--3-----3--|
C |4--------4-----4--4-----4--4-----4--|4-----4--4-----4--------4--4-----4--|
G |---------------------------------------|3-----3--3-----3--------3--3-----3--|
                                                                          
A |0--------0-----0--0-----0--0-----0--|2-----2--2-----2--------2--2-----2--|
E |1--------1-----1--1-----1--1-----1--|3-----3--3-----3--------3--3-----3--|
C |0--------0-----0--0-----0--0-----0--|2-----2--2-----2--------2--2-----2--|
G |---------------------------------------|----------------------------------------|
                                                                            
A |3--------3-----3--3-----3--3-----3--|3-----3--3-----3--------3--3-----3--|
E |3--------3-----3--3-----3--3-----3--|3-----3--3-----3--------3--3-----3--|
C |4--------4-----4--4-----4--4-----4--|4-----4--4-----4--------4--4-----4--|
G |---------------------------------------|3-----3--3-----3--------3--3-----3--|
                                                                          
    Part D                                        
                                                                          
A |0--------0-----0--------0--0-----0--|2-----2--2-----2--------2--2-----2--|
E |1--------1-----1--------1--1-----1--|3-----3--3-----3--------3--3-----3--|
C |0--------0-----0--------0--0-----0--|2-----2--2-----2--------2--2-----2--|
G |---------------------------------------|------------------------------------|
                                                                            
A |3--------3-----3--3-----3--3-----3--|3-----3--3-----3--------3--3-----3--|
E |3--------3-----3--3-----3--3-----3--|3-----3--3-----3--------3--3-----3--|
C |4--------4-----4--4-----4--4-----4--|4-----4--4-----4--------4--4-----4--|
G |---------------------------------------|3-----3--3-----3--------3--3-----3--|
                                                                          
A |1--------1-----1--1-----1--1-----1--|1-----1--1-----1--------1--1-----1--|
E |1--------1-----1--1-----1--1-----1--|1-----1--1-----1--------1--1-----1--|
C |2--------2-----2--2-----2--2-----2--|2-----2--2-----2--------2--2-----2--|
G |---------------------------------------|----------------------------------------|
                                                                          
A |1--------1-----1--1-----1--1-----1--|2-----2--2-----2--------2--2-----2--|
E |1--------1-----1--1-----1--1-----1--|3-----3--3-----3--------3--3-----3--|
C |2--------2-----2--2-----2--2-----2--|2-----2--2-----2--------2--2-----2--|
G |---------------------------------------|----------------------------------------|
                                                                          
A |3-----------------------------------|------------------------------------|
E |3-----------------------------------|------------------------------------|
C |4-----------------------------------|------------------------------------|
G |------------------------------------|------------------------------------|
                                                                          

Nessun commento:

Posta un commento

classifiche