sabato 11 febbraio 2012

Tetris (Game Boy) Ukulele Tab

Altra canzoncina, come quella di ieri, tratta dalla colonna sonora di un videogioco.

A|-5--0-1-3--1-0------1-5--3-1-0--0-1-3--5-1----------
E|-3-------------3--3----------2--2--------3--3--3----
C|-2-------------2--2----------2--2--------2----------
G|---------------0--0----------2--2--------0----------

A|-3--6-6/10--8-6-5--1-5--3-1-0-0-1-3--5-1------------
E|-3---------------3----------2-----------3--3-3-------
C|-3---------------2----------2-----------2------------
G|-3--------------------------2-----------------------

A|-5---1---3---0-------5-10-9----10-------------------
E|-3-------2----------6------10----10-------------------
C|-2-------2----------7-------9----10-------------------
G|---------2------------------------------------------

Nessun commento:

Posta un commento

classifiche